Chords, 3 Main Sections....Major, Minor and Sevenths

Major PDF file

Minor PDF file

SEVENTHS PDF file

Chord Pictures and Videos

 

Tune to this guitar MP3....

Double strike 4567 MP3

E string fret 4, fret 5, fret 6, fret 7.....then A string fret 4, fret 5, fret 6, fret 7 and then play an E chord

A double strike on each one....

below is Tab

 

 

 

Strum Video's

Below....Tab Explained

E-----------------------------------
B-----------------------------------
G-----------------------------------
D-----------------------------------
A-----------------------------------
E-----------------------------------
The lines are the strings on your guitar.
In tab a number is placed on a string
to tell you what fret on that string to
place your finger......example below
E------------------------------------
B------------------------------------
G------------------------------------
D------------------------------------
A------------------------------------
E--2--4--5---------------------------
on the big fat E string press your finger on
the second fret then next press your finger
on the fourth fret and then the fifth fret....
E--0-----------------0------------------
B--0---------------0--------------------
G--0-------------0----------------------
D--2-----------2------------------------
A--2---------2--------------------------
E--0-------0----------------------------
Tab is read from left to right just like reading
a book...If there is a 0 that means open string.
above is a chord of Em...all strings are struck at the
same time, next is a chord Em but each string is
struck one string at a time.
E------------------------------------------
B---1-----1--------------------------------
G------0-----0-----------------------------
D---2-----2--------------------------------
A------------------------------------------
E------------------------------------------
above is 2 strings pinched at the same time
followed by a single note.no other strings are played.

Below is Scales

E--3--1--0----------------------------------
B----------3--1--0--------------------------
G------------------2--0---------------------
D------------------------3--2--0------------
A---------------------------------3--2--0---
E------------------------------------------3
C Scale

C Scale video

C Scale on the B String

E----------------------------------------
B----------------------------------------
G----------------------------------------
D---------------------6--7---------------
A------------5--7--8---------------------
E---5--7--8------------------------------
Minor Scale
E-----------------------------------10--12
B-------------------------8--10--12------
G--------------------7--9----------------
D------------5--7--9---------------------
A-------5--7-----------------------------
E--5--7----------------------------------
Example of Pentatonic scale
E-------------------------------------
B-------------------------------------
G-------------------------------------
D-----------------4--6--7-------------
A--------4--5--7----------------------
E---5--7------------------------------
major Scale

Below is Blank Tabs for scales and riffs

Blank guitarneck PDF file

12 bar blues tab

12 bar blues MP3.... Practice your Pentatonic scale with this

12 bar blues video

12 bar blues slide video

 

 

Below...Harmonic Fun

Harmonic Fun MP3

Guitar notes PDF file

 

 

#----------------------------------PLEASE NOTE--------------------------------#
#This file is the author's own work and represents their interpretation of the#
#song. You may only use this file for private study, scholarship, or research.#
#-----------------------------------------------------------------------------#


Date:

------------------------------------------------------------------------------
SONG:
BAND OR ARTIST:
FROM THE ALBUM:
TRANSCRIBED BY:
------------------------------------------------------------------------------

Guitar Tuning: E A D G B E


h - hammer on
p - pull off
b - bend string up
r - release bend
/ - slide up
\ - slide down
v - vibrato (sometimes written as ~)
t - right hand tap
x - play 'note' with heavy damping
<12>- harmonics (12th fret, in this case)

e------------------------------------------------------------------|
B------------------------------------------------------------------|
G------------------------------------------------------------------|
D------------------------------------------------------------------|
A------------------------------------------------------------------|
E------------------------------------------------------------------|


e------------------------------------------------------------------|
B------------------------------------------------------------------|
G------------------------------------------------------------------|
D------------------------------------------------------------------|
A------------------------------------------------------------------|
E------------------------------------------------------------------|


e------------------------------------------------------------------|
B------------------------------------------------------------------|
G------------------------------------------------------------------|
D------------------------------------------------------------------|
A------------------------------------------------------------------|
E------------------------------------------------------------------|

e------------------------------------------------------------------|
B------------------------------------------------------------------|
G------------------------------------------------------------------|
D------------------------------------------------------------------|
A------------------------------------------------------------------|
E------------------------------------------------------------------|


e------------------------------------------------------------------|
B------------------------------------------------------------------|
G------------------------------------------------------------------|
D------------------------------------------------------------------|
A------------------------------------------------------------------|
E------------------------------------------------------------------|

e------------------------------------------------------------------|
B------------------------------------------------------------------|
G------------------------------------------------------------------|
D------------------------------------------------------------------|
A------------------------------------------------------------------|
E------------------------------------------------------------------|

e------------------------------------------------------------------|
B------------------------------------------------------------------|
G------------------------------------------------------------------|
D------------------------------------------------------------------|
A------------------------------------------------------------------|
E------------------------------------------------------------------|

blank tab PDF file